E-mail

Meu eu em você – Victor e Leo (aula de violão simplificada)

Meu eu em você – Victor e Leo (aula de violão simplificada)

Meu Eu Em Você

Victor e Leo

 Victor e Leo
Tom: G
(intro) G Em

G
Eu sou o brilho dos teus olhos ao me olhar
Em
Sou o teu sorriso ao ganhar um beijo meu
C Em
Eu sou teu corpo inteiro a se arrepiar
Am D
Quando em meus braços você se acolheu
G
Eu sou o teu segredo mais oculto
Em
Teu desejo mais profundo, o teu querer
C Em
Tua fome de prazer sem disfarçar
Am D
Sou a fonte de alegria, sou o teu sonhar
C Em
Eu sou a tua sombra, eu sou teu guia
G D
Sou o teu luar em plena luz do dia
Am C
Sou tua pele, proteção, sou o teu calor
G D
Eu sou teu cheiro a perfumar o nosso amor
Am C
Eu sou tua saudade reprimida
G D
Sou o teu sangrar ao ver minha partida
Am C
Sou o teu peito a apelar, gritar de dor
G D
Ao se ver ainda mais distante do meu amor

(refrão)
C Em
Sou teu ego, tua alma
Am D
Sou teu céu, o teu inferno a tua calma
C Em
Eu sou teu tudo, sou teu nada
C Em
Minha pequena, és minha amada
C Em
Eu sou o teu mundo, sou teu poder
C D G
Sou tua vida, sou meu eu em você


E|-10-------10------
B|----8--------8----
G|------7--------7- (6x)
A|------------------
D|------------------
E|------------------



E|-7-------7--------
B|---8-------8------
G|------9-------9--- (6x)
A|------------------
D|------------------
E|------------------



E|-10-------10------
B|----8--------8----
G|------7--------7- (6x)
A|------------------
D|------------------
E|------------------



E|-7-------7--------
B|---8-------8------
G|------9-------9--- (6x)
A|------------------
D|------------------
E|------------------


(intro 2x) G Em
UUUUUU U U U UUUUUUUUUUUUU
UU U U U UUUUU U U U UUUUUUUUU